Главная » Статьи » Аккорды и Табулатуры » L

Lumen - Дыши
Дыши

Вступление:

Dm C/9
E||----------------------------|---------------------------||
H||----------------------------|------3---------3----------|| \
G||5/7----7----7----7--7---7-5-|-----------5-------5---5-5/|| / 3 раза
D||----7---------7-------7-----|---7---------7-------7-----||

Hm-5 B
E||----------------------------|---------------------------||
H||----------------------------|------3---------3----------||
G||5/7----7----7----7--7---7-5-|-----------5-------5---5-5/||
D||----7---------7-------7-----|---7---------7-------7-----||

Dm C/9
Я слышу как в ночи устали серые дома,
Hm-5 B
Им стало слишком тесно, они так много знают
За стенкой в тишине один и тот же крик,
И в сотый раз по кругу, кому-то повторяют.

Asus4 B+7
Дыши! Дыши! > 2 раза

Проигрыш: Dm | C/9 | Hm-5 | B

Dm
Ненадежные стены панельных строений
C/9
Впитали в себя вкус побед и порожений
Hm-5
И харкнули это и себя наружу
B Gm
Прямо мне в душу прямо тебе в душу
Dm
Никуда не убежать от соседского уха
C/9
Но оно, поверь, будет безнадежно глухо
Hm-5
Когда над тобой начнут колдовать
B Gm
И кто-то тебе будет повторять и повторять!

Припев

Проигрыш: D5 | D5 | F5 | C5 \
D5 | D5 | F5 | G5 F5 \
D5 | D5 | F5 | C5 / 2 раза
B5 | A5 | B5 | A5 /

D5
Я ничего не слышу, я затыкаю уши. \
Я ничего не знаю, и мне никто не нужен. / 2 раза

D5 F5 C5
Я ничего не слышу, я затыкаю уши.
D5 F5 G5 F5
Я ничего не знаю, и мне никто не нужен.
D5 F5 C5
Я ничего не слышу, я затыкаю уши.
B5 A5 B5 A5
Я ничего не знаю, и мне никто не нужен.

Кода = последний проигрыш

Категория: L | Добавил: Damao (22.08.2007)
Просмотров: 2281 | Рейтинг: 1.0/1

Всего комментариев: 0
avatar