Главная » Статьи » Аккорды и Табулатуры » А

Ария - Улица роз
Em C EmC Em C F# H(H7)
Жанна из тех королев, что любят роскошь и ночь.
Только царить на земле ей долго не суждено.
G(III) A(V) H(VII) G(III) C H(VII)
Ну, а пока, как богиню на руках носят Жанну, Жанну.

Все началось несозла, все началось как игра, но
Лестницу в небо сожгла - плата за стыд, твой, и страх
Ты и они, я порвал бы эту нить. слышишь, Жанна, Жанна.

H(VII) A(V) G(III) A G F# Em
Сво......дит с ума у..лица роз.
H A G A G F# Em
Спрячь свой обман, улица слез.
C H C H C H
Я люблю и ненавижу тебя!

Грязь под ногами бродяг чище чем фальшь сладких снов.
Я подаю тебе знак бросить свое ремесло.
Брось и уйди, пусть растает словно дым облик Жанны, Жанны.
припев:
У королевы нет сил. Трудно пойти вновь на риск
И она разбивает часы, чтобы продлить себе жизнь.
Жить, ведь пока, как богиню на руках носят Жанну, Жанну.
припев:
                 Улица роз

  Вступление(практически везде на втором фоне):

-7----7----7--|-7----7----7--|-7----7----7--|-7----7----7--|
-7----7----7--|-8----8----8--|-7----7----7--|-8----8----8--|
-----------------------|
--9-9--9-9--9-|--9-9--9-9--9-|--9-9--9-9--9-|--9-9--9-9--9-|
-----------------------|
-----------------------|


-7----7----7--|-7----7----7--|-11----11----11--|-8------8------8---|
-7----7----7--|-8----8----8--|-11----11----11--|-9------9------9---|
-----------------|---8-8---8-8---8---------|
--9-9--9-9--9-|--9-9--9-9--9-------|--10-10--10-10--10-|
-------------------------------|
-------------------------------|

----------------------------------------------------3--2----|
-0----2--3--2----0-------------0---2---3---5---3------------|
--------------------2---------------------------------------|
------------------------4-----------------------------------|
------------------------------------------------------------|
------------------------------------------------------------|

-3------|-0------0-|-2--2-|-2--0-|----------|-----3--|-----2-|
-0--2-3-|-2--3-----|-3----|-2----|-3---3--2-|-0------|-2-----|
-0------|-2--------|-2----|-3----|-4--------|-0------|-3-----|
--------|-2--------|-0----|------|-4--------|-2------|-4-----|
--------|----------|------|-4----|-2--------|-2------|-4-----|
-3------|----------|------|------|----------|--------|-------|

-----------------------------------------------------3--2----|
-0----2--3--2----0-------------0---2---3---5----3------------|
--------------------2----------------------------------------|
------------------------4------------------------------------|
-------------------------------------------------------------|
-------------------------------------------------------------|

-3------|-0----0--|-2---2-|-2--0-----|-----3--|-----2-|
-0--2-3-|-2--3----|-3-----|-2----|-3-----3---2---|-0------|-2-----|
-0------|-2-------|-2-----|-3----|-4-------------|-0------|-3-----|
--------|-2-------|-0-----|------|-4-------------|-2------|-4-----|
--------|---------|-------|-4----|-2-------------|-2------|-4-----|
-3------|---------|-------|----------|--------|-------|

-2----------------|-0------------------------------|
------------------|----------3-------|-3-----------------------|
-0-0-0-0--0-0-0-0-|-0-0-0-0--0-0-0-0---------------|
-0-0-0-0--0-0-0-0-|-0-0-0-0--0-0-0-0-|-0-0-0-0--0-0-0-0-|-4-4-4-3--3-3-0-0-|
-------------------------|-0-0-0-0--0-0-0-0-|-0-0-0-0--0-0-0-0-|
---------------------------------------|

-0-------------------------------------|
------------------|-3--------2-------|-0-----------------------|
-2-2-2-2--2-2-2-2-|-2-2-2-2--2-2-2-2-|-4-4-4-4--4-4-4-4-|-4-4-4-4--4-4-4-4-|
-2-2-2-2--2-2-2-2-|-2-2-2-2--2-2-2-2-|-4-4-4-4--4-4-4-4-|-4-4-4-4--4-4-4-4-|
--------------------------------|-5-5-5-4--4-4-2-2-|
---------------------------------------|

-2----------------|-0------------------------------|
------------------|----------3-------|-3-----------------------|
-0-0-0-0--0-0-0-0-|-0-0-0-0--0-0-0-0---------------|
-0-0-0-0--0-0-0-0-|-0-0-0-0--0-0-0-0-|-0-0-0-0--0-0-0-0-|-4-4-4-3--3-3-0-0-|
-------------------------|-0-0-0-0--0-0-0-0-|-0-0-0-0--0-0-0-0-|
---------------------------------------|

-0-----------------------|----------2-------|
------------------|-3--------2-------|-0----------------|
-2-2-2-2--2-2-2-2-|-2-2-2-2--2-2-2-2-|-4-4-4-4--4-4-4-4-|
-2-2-2-2--2-2-2-2-|-2-2-2-2--2-2-2-2-|-4-4-4-4--4-4-4-4-|
--------------------------------|
--------------------------------|

-0--2---2-|-3-2--0--0-|-------2-|------0-|--------2-|------0-|-----|
--------0-|---------2-|-3--2--0-|-2-3--2-|-2-0----0-|-2-3--2-|-3---|
-4--4---0-|---------2-|-------0-|------2-|-----2--0-|------2-|-4---|
-4--4-----|---------2-|---------|------2-|----------|------2-|-4---|
----------|---------|--------|----------|--------|-2---|
--------2-|-------2-|--------|--------2-|--------|-----|

Категория: А | Добавил: Damao (04.09.2007)
Просмотров: 1523 | Рейтинг: 0.0/0

Всего комментариев: 0
avatar