Главная » Статьи » Аккорды и Табулатуры » К

КиШ - Ведьма и осел
Вступление:

1)----5----8----5----3----5----8----5----------------
2)----5----8----5----3----5----8----5----------------
3)---------------------------------------------------
4)---------------------------------------------------
5)---------------------------------------------------
6)---------------------------------------------------


Основная мелодия для куплетов (по-видимому ее играет гитара)

Am F
-----------------------------------------------------
-----------------------------------------------------
-----------------------------------------------------
---------7-------------------5-----------------------
-7-7-5-7---7-5-7-------7-5-7---7-5-3-----------------
-----------------------------------------------------
 Dm Am
-----------------------------------------------------
-----------------------------------------------------
-----------------------------4-----------------------
-----7-5-------------------7---7-5-------------------
---------7-5-3---------------------7-----------------
-5-5-------------------5-5---------------------------

 F
-----------------------------------------------------
-----------------------------------------------------
---------------------------7-5-----------------------
-----7-5-----------------------7-5-3-----------------
---------7-5-7---------------------------------------
-5-5-------------------5-5---------------------------

 Dm Am
-----------------------------------------------------
-----------------------------------------------------
-----------------------------4-----------------------
-----7-5-------------------7---7-5-------------------
---------7-5-3---------------------7-----------------
-5-5-------------------5-5---------------------------



 Am
В детстве цыганка мне одна
 F 
Предсказала, будто я,
 Dm
Если сильно полюблю,
 Am
То любимого сгублю,
Что измены не прощу
 F
И жестоко отомщу,
 Dm
Не специально, но со зла
 Am
Превращу его в осла.


Am
Он очень милым парнем был,
 F
Но зачем он изменил ?
 Dm
И тогда все началось -
 Am
Предсказание сбылось,
И внезапно над собой
 F
Потеряла я контроль,
 Dm
И любимый стал стонать,
 Am
Серой шерстью обрастать.

Припев :

 F G Am
Ведьма я, эх, ведьма я -
 Dm Am7
Такая вот нелегкая судьба моя !
 F G Am
Силой я наделена,
 Dm Am7
Но на беду любовь моя обречена...


Am 
И мой любимый навсегда
 F
Жить остался у меня,
 Dm
И за мною по пятам
 Am
Он ходил и тут и там.
Замечала я порой,
 F
Как страдает милый мой,
 Dm
И жалела я осла -
 Am
На лугу его посла.


Am 
Я все хотела как-нибудь
 F
Облик милого вернуть,
 Dm
Я старалась как могла,
 Am
Но ничем не помогла.
Он копытами стучал,
 F
По-ослиному кричал
 Dm
И хвостом своим вертел -
 Am
Человеком быть хотел.

Припев.


Am 
Лишь понял он, что обречен
 F
До заката своих дней
 Dm
Быть страдающим ослом
 Am
Под опекою моей.
И в итоге наконец,
 F
Он приблизил свой конец,
 Dm 
Что-то выпил, что-то съел -
 Am
И бедняга околел.

Припев.

Категория: К | Добавил: Damao (04.09.2007)
Просмотров: 2026 | Рейтинг: 0.0/0

Всего комментариев: 0
avatar