Главная » Статьи » Аккорды и Табулатуры » К

КиШ - Два вора и монета
Примечание:
 x - глушение (Palm muted), Гитара 1, Гитара 2 - Distortion

==========
 Куплет I
==========

Два вора лихо скрывшись от погони
Делить украденное золото решили
На старом кладбище вечернею порою
Уселись рядом на заброшенной могиле

И вроде поровну досталось им богатства
Но вот беда, последняя монета!
Один кричит: "Она моя! Я лучше дрался!"
"Да чтоб ты делал, друг, без моего совета?"

===========
 Куплет II
===========

D|-99---77---55---55-77-99-| Гитара 1
A|-77---55---33---33-55-77-|
 x x x x x x
 Отдай монету, а не то я рассержусь


D|-99---77---55---77-| Гитара 1
A|-77---55---33---55-|
 x x x x

H|-4-4-1--------------------| Гитара 2
G|-------3-0-0------------1-|
D---3-1---1-3---|
A-------3-------|
 Мне наплевать, я твоей злости не боюсь


D|-9--99-9--99-...-| Гитара 1
A|-7--77-7--77-...-|
 xx xx
 "Но ведь я похитил деньги и все дело провернул!"


D|-99-99-...-| Гитара 1
A|-77-77-...-|
 xx xx
 "Без моих идей, невежа, ты б и шагу не шагнул!"


========
 Припев
========

D|-99-99-...-| Гитара 1
A|-77-77-...-|
 "Что же делать нам с монетой, как же нам ее делить?"
 "Отдадим покойнику! Отлично! Так тому и быть!"


============
 Куплет III
============

D|-99---77---55---55-77-99-| Гитара 1
A|-77---55---33---33-55-77-|
 x x x x x x
 "Я был проворней, значит денежка моя!"



D|-99---77---55---77-| Гитара 1
A|-77---55---33---55-|
 x x x x

H|-4-4-1--------------------| Гитара 2
G|-------3-0-0------------1-|
D---3-1---1-3---|
A-------3-------|
 "Не допущу, чтоб ты богаче был, чем я!"


D|-9--99-9--99-...-| Гитара 1
A|-7--77-7--77-...-|
 xx xx
 "Сейчас вцеплюсь тебе я в горло и на части разорву!"

D|-99-99-...-| Гитара 1
A|-77-77-...-|
 xx xx
 "Я прибью тебя дубиной и все деньги заберу!"

======
 Соло
======

E|---0---------------------| Гитара 2
H|-3---3-1---------------1-|
G|---------2-2-0-------2---|
D----3-0-3-----|

E|---0---------------------| Гитара 2
H|-3---3-1---------------3-|
G|---------2-2-0-------2---|
D----3-0-3-----|

===========
 Куплет IV
===========

D|-9--99-9--99-...-| Гитара 1
A|-7--77-7--77-...-|
 xx xx
 И мертвец гремя костями вдруг поднялся из земли
 "Довели меня, проклятые... Ей богу - ДОВЕЛИ!"

D|-99-99-...-| Гитара 1
A|-77-77-...-|
 Воры в миг переглянулись и помчались на утек
 А мертвец все золото с собой в могилу уволок...


===========
 Окончание
===========

D|-999-999-777-777-999-999-777-777-| Гитара 1
A|-777-777-555-555-777-777-555-555-|
 x x x x x x x x

D|-555-555-777-777-555-555-777-777-| Гитара 1
A|-333-333-555-555-333-333-555-555-|
 x x x x x x x x

D|-9-| Гитара 1
A|-7-|


=================
 Структура песни
=================
 - Куплет I
 - Куплет II
 - Припев
 - Куплет III
 - Припев
 - Соло
 - Куплет IV
 - Окончание

Категория: К | Добавил: Damao (04.09.2007)
Просмотров: 2020 | Рейтинг: 0.0/0

Всего комментариев: 0
avatar