Главная » Статьи » Аккорды и Табулатуры » К

КиШ - Жаль, нет ружья!
На акустической гитаре, для упрощения игры, можно заменить аккорды следующим образом:

 A5 H5 C5 G5 F5 E5 D5
 | | | | | | |
 Am H C G F E Dm 

Признаюсь, братцы, вам, я дедушку любил.
Так, он же бил тебя? Клянусь, за дело бил.
Он хоть и строгий был, зато меня учил.
Все то что знаю я, от деда получил.
Ну а когда хотелось баловаться мне, 
Так тут святое врезать палкой по спине. 
Не стало деда, и мне грустно от того,
Что не хватает подзатыльника его.
Так, что же с дедушкой случилась за беда?
Ведь у него здоровья было хоть куда. 
Увы, охотников в округе нет теперь,
И стал все чаще нас лесной тревожить зверь.
Я думал сделаю из волка колбасу!
Да, где ж обидчика найдешь теперь в лесу? 

 E5 A5 Am H C G F Am 
1)---------|-0-0-0-2-3-3-3-3-1-1-1-0--0-0-0-0-0-0----|
2)---------|-1-1-1-4-5-5-5-3-1-1-1-1--1-1-1-1-1-1----|
3)-------2-|-2-2-2-4-5-5-5-4-2-2-2-2--2-2-2-2-2-2----|
4)-2-2-2-2-|-2-2-2-4-5-5-5-5-3-3-3-2--2-2-2-2-2-2----|
5)-2-2-2-0-|-0-0-0-2-3-3-3-5-3-3-3-0--0-0-3-0-0-0----| [x2]
6)-0-0-0-------3-1-1-1------------3------|

 Dm Am Dm Am Dm Am
1)-1-1-1-1/--0--1-1-0-0-1-1--0--0-0-0-0-0-0----|
2)-3-3-3-3/--1--3-3-1-1-3-3--1--1-1-1-1-1-1----|
3)-2-2-2-2/--2--2-2-2-2-2-2--2--2-2-2-2-2-2----|
4)-0-0-0-0---2--0-0-2-2-0-0--2--2-2-2-2-2-2----|
5)---0-0-0—--0----0-0-0---0—-0--0-0-3-0---0----| 
6)--------------------------------------3------|

 Dm E5 F5 D5 E5
1)-1-1-1-1-1-1------------------------------------------|
2)-3-3-3-3-3-3------------------------------------------|
3)-2-2-2-2-2-2------------------------------7-7-7-7-7-9-|
4)-0-0-0-0-0-0—-2-2-2-2-2-2-2-2-3-3-3-3-3-3-7-7-7-7-7-9-|
5)---0-0-0-0-0--2-2-2-2-2-2-2-2-3-3-3-3-3-3-5-5-5-5-5-7-|
2)--------------0-0-0-0-0-0-0-0-1-1-1-1-1-1-------------|


E5 A5 Am H C G F Am
 Скрипели старые колеса у телеги 
 Am H C G F Am 
 Кобыла шлепала копытом по грязи
 Dm Am Dm Am Dm Am
 Уставший дед курил и думал о ночлеге
 Dm E5
 Кобыле молвил он: «Быстрей в село вези!»

 E5 F5 D5 E5
 Жаль, нет ружья…


 A5 H5 C5 G5 F5 A5 
1)--------------------------------------------------|
2)--------------------------------------------------|
3)-2-2-2-4-5-5-5-5-----------2-2-2-2----------------|
4)-2-2-2-4-5-5-5-5-5-3-3-3-3-2-2-2-2----------------|
5)-0-0-0-2-3-3-3-3-5-3-3-3-3-0-0-0-0----------------| [x2]
6)-----------------3-1-1-1-1------------------------|

 D5 A5 D5 A5 D5 A5 D5 E5
1)--------------------------------------------------|
2)--------------------------------------------------|
3)-7-7-7---7---7---------7-7-7-7--------------------|
4)-7-7-7-7-7-7-7-7-7-7-7-7-7-7-7-2-2-2-2-2-2--------|
5)-5-5-5-7-5-7-5-7-7-7-7-5-5-5-5-2-2-2-2-2-2--------| 
6)-------5---5---5-5-5-5---------0-0-0-0-0-0--------|

 Но та тревожно в сторону леса поглядела
 «Волков почуяла!» – смекнул тот час же дед
 «Скачи галопом, коли, жить не надоело 
 Пока не выскочил лохматый наш сосед»

 Припев:

 A5 C5 D5 E5 F5 E5
1)----------------------------------------------------------|
2)----------------------------------------------------------|
3)--2-2-2-2-2-2-2-2-5-5-5-5-5-5-7-7-9-9-10-10-10-10-9-9-9-9-|
4)--2-2-2-2-2-2-2-2-5-5-5-5-5-5-7-7-9-9-10-10-10-10-9-9-9-9-|
5)--0-0-0-0-0-0-0-0-3-3-3-3-3-3-5-5-7-7-8—-8—-8--8--7-7-7-7-| 
6)----------------------------------------------------------|

 A5 C5 D5 E5 F5 D5 E5
1)----------------------------------------------------------|
2)----------------------------------------------------------|
3)--2-2-2-2-2-2-2-2-5-5-5-5-5-5-7-7-9-9-10-10-10-10-7-7-7-9-|
4)--2-2-2-2-2-2-2-2-5-5-5-5-5-5-7-7-9-9-10-10-10-10-7-7-7-9-|
5)--0-0-0-0-0-0-0-0-3-3-3-3-3-3-5-5-7-7-8—-8—-8--8--5-5-5-7-| 
6)----------------------------------------------------------|

 A5 
 Жаль, нет ружья
 C5 D5 E5 F5 E5 
 Свирепый хищник под вечер чертовски опасен
 A5
 А до села 
 C5 D5 E5 F5 
 Немало верст, путь в тумане кобыле не ясен,
 D5 E5
 Не ясен. Гони!


 Но вдруг кобыла резко в сторону метнулась
 Порвала вожжи и помчалась вихрем прочь
 Телега набок в тот же миг перевернулась
 И дедушка был скушан в эту ночь

 Припев. 

 Концовка на аккорде F.

Категория: К | Добавил: Damao (04.09.2007)
Просмотров: 1188 | Рейтинг: 0.0/0

Всего комментариев: 0
avatar