Главная » Статьи » Аккорды и Табулатуры » П

Пурген - Атомная романтика
Intro:

-----------------|
-----------------|
|--7--5--5--5--5-------------|
|--5--5--7--5--7---|--9--7--9--7--9--|--7---5---4----|
-------|--7--7--7--7--7--|--5---3---2----|
-----------------|

Main Riff:

------------------|
------------------|
|------7----------------------|
|------5----9--7--------------|
7--5--------------|
------------------|

По ядерной долине мы пойдем с тобой гонять
Забыли мы скафандры, нам на это наплевать
Бензин нам моет ноги и газ щекочет нас
По ядерной долине везет нас бензовоз

Riff 1:
-----------------|
-----------------|
|---------10-----------------|
|------10-8------7-----------|
|------8---------5-7---------|
-------5---------|

А-А. Атомная романтика.
А-А. Ядерная Любовь.
А-А. Атомная романтика.
А-А. Ядерная Любовь.

Intro

Main riff
Поели мы бензина и отведали мы нефть
Понюхали мы газа и понюхали мы твердь
И под машиной нашей металлический хлам
И ядерные взрывы освещают пути нам

А-А. Атомная романтика.
А-А. Ядерная Любовь.
А-А. Атомная романтика.
А-А. Ядерная Любовь.

А-А. Атомная романтика.
А-А. Ядерная Любовь.
А-А. Атомная романтика.
А-А. Ядерная Любовь.

Категория: П | Добавил: Damao (24.08.2007)
Просмотров: 1047 | Рейтинг: 0.0/0

Всего комментариев: 0
avatar