Поиск

Авторизация

Логин:
Пароль:

На форуме...

[11:09] Последняя прочитанная кни... (cathrynjg11) (Литература и Фотография)
[04:33] Сериалы (Annasnott) (Фильмы, Кино)
[21:06] Новый клип Линды, Fike & ... (Robertshold) (Rock)
[18:43] Мини игры (ShastovSaG) (Игры)
[20:36] Что ты сейчас слушаешь? (Emopunx) (Флейм)
[15:31] Антивирусы (Gunmetal) (Программы и Оборудование)
[15:27] Новый антивирус Grizzly (Gunmetal) (Программы и Оборудование)
[19:24] Rammstein (inetryconydot) (Industrial)
[18:06] Игра в Города (MarrinaTync) (Флейм)
[17:34] Какой спорт предпочитаете... (Ruslankspeera) (Спорт)

Больше всех залили

  • sem1991 (8136)
  • covenua (3132)
  • serg-ronya (2123)
  • buka48213 (1710)
  • Gunmetal (1582)
  • Mad_333 (1322)
  • Psychosocial (1157)
  • Deathconect (932)
  • xScaryKiDx (427)
  • LAGVALLL (413)
  • Счетчики

    Яндекс.Метрика
    Портал Альтернативной Музыки

    Муз.Информ.

    Главная » Статьи » Аккорды и Табулатуры » П

    Пурген - Мертвые крысы
    ^ --“тянуть(держать) ноту”
    ~~ --slide(скольжение по гриффу)

    Вступление х 2 ( когда звучит барабанная партия):
    1----------------------------------------------|
    2-|-9^-11^-8^---8---9---9-9-9-9--11-11-11-11-8-8-8-8--8--9-|
    3-9---9----------------------------------9--9--|
    4----------------------------------------------|
    5----------------------------------------------|
    6----------------------------------------------|

    1--------------------------------------------|
    2--------------------------------------------|
    3-|-99999999~~7~~99999999~~7~~555555555~~7~~4444444-0-0--|
    4-|-99999999~~7~~99999999~~7~~555555555~~7~~4444444-0-0--|
    5-|-77777777~~5~~77777777~~5~~333333333~~5~~2222222-0-0--|
    6--------------------------------------------|


    Основная часть:

    1---------------------------------------------|
    2---------------------------------------------|
    3-|-9^-----------------------9^---------------------------|
    4-|-9^-----------------------9^---------------------------|
    5-|-7^-----------------------7^---------------------------|
    6---------------------------------------------|
    Я иду по переходу и смотрю по сторонам…..

    1--------------------------------------------|
    2--------------------------------------------|
    3-|--9-9-9-9-5-5-5-5-5-5-5-5-5-5-5-5-5-4-4-4-4-4-4-4-0-0-|
    4-|--9-9-9-9-5-5-5-5-5-5-5-5-5-5-5-5-5-4-4-4-4-4-4-4-0-0-|
    5-|--7-7-7-7-3-3-3-3-3-3-3-3-3-3-3-3-3-2-2-2-2-2-2-2-0-0-|
    6--------------------------------------------|
    Вижу : крыс уничтожали,свалки тушек по углам..

    1-----------------------|
    2-----------------------|
    3-|-9-9-9-9-9-9-9-9-9-9-9-9-9-9-9-9-|
    4-|-9-9-9-9-9-9-9-9-9-9-9-9-9-9-9-9-|
    5-|-7-7-7-7-7-7-7-7-7-7-7-7-7-7-7-7-|
    Подошел я к ним поближе,
    Заглянул я к ним в глаза

    1----------------------------------------|
    2----------------------------------------|
    3-|-9-9-5-5-5-5-5-5-5-5-5-5-5-5-5-5-4-4-4-4-4-4-0000-|
    4-|-9-9-5-5-5-5-5-5-5-5-5-5-5-5-5-5-4-4-4-4-4-4-0000-|
    5-|-7-7-3-3-3-3-3-3-3-3-3-3-3-3-3-3-2-2-2-2-2-2-0000-|
    6----------------------------------------|
    И увидел в отражении людей холодные глаза...

    Solo:
    1-------------------------|
    2-|-9(х7)-11(х7)-8(х7)--------9-9-9-9-|
    3----------9-9-9-9--------|х 2
    4-------------------------|
    5-------------------------|
    6-------------------------|



    1-----------------|
    2-----------------|
    3-|-9-9-9-9-9-9-9-9-9-9-9-9---| Riff 1
    4-|-9-9-9-9-9-9-9-9-9-9-9-9---|
    5-|-7-7-7-7-7-7-7-7-7-7-7-7---|
    6-----------------|
    А в глазницах отражались:
    Милый мальчик за углом,

    1-----------------------------------------|
    2-----------------------------------------| |R|
    3-|-9-9-9-5-5-5-5-5-5-5-5-5-5-5-5-5-5-4-4-4-4-4-4-0-0-| |I|
    4-|-9-9-9-5-5-5-5-5-5-5-5-5-5-5-5-5-5-4-4-4-4-4-4-0-0-| |F|
    5-|-7-7-7-3-3-3-3-3-3-3-3-3-3-3-3-3-3-2-2-2-2-2-2-0-0-| |F|
    6-----------------------------------------| |2|
    Тут и бабушка с собачкой, молоток,топор и лом

    Припев:

    1-------------------------------------------|
    2-------------------------------------------|
    3-|-999999999999999~~7~~99999~~7~~55555~~7~~444444-0-0-0|
    4-|-999999999999999~~7~~99999~~7~~55555~~7~~444444-0-0-0|
    5-|-777777777777777~~5~~77777~~5~~33333~~5~~222222-0-0-0|
    6-------------------------------------------|
    Мертвые крысы!..х4

    Solo х 2


    Riff 1(agressive)
    И скажу: мне неприятен
    Этот очень мрачный глюк,

    Riff 2 (agressive)
    Когда мертвые крысята
    Уже из лужицы не пьют

    Riff 1
    И опять я убедился
    В одной истине на век:

    Riff 2
    Те кто убивет слабых-
    Очень слабый человек…….

    Припев.

    Solo х1

    Riff 1, 2
    Категория: П | Добавил: Damao (24.08.2007)
    Просмотров: 1136 | Рейтинг: 0.0/0
    Всего комментариев: 0
    avatar

    ВКонтакте