Главная » Статьи » Аккорды и Табулатуры » П

Пурген - Масква не станет Лондоном
Intro
|---------------------------------|
|---------------------------------|
|---------------------------------|
|---------------------------------|
|--0---5---5-5-5---5---8---8-8-8--|
|---------------------------------|

Riff 1 (в 1 раз) (во 2 раз)
|-----------------------------||--------------------------|--------------------------|
|-----------------------------||--------------------------|--------------------------|
|-----------------------------||--------------------------|--------------------------|
|------7---9--10--7--9--5--2--||--2--7--9--10--7--9--7-9--|--14-14-14--12-12-12--10--|
|--7---5---7--8---5--7--3--0--||--0--5--7--8---5--7--5-7--|--12-12-12--10-10-10--8---|
|--5--------------------------||--------------------------|--------------------------|

Riff 2 (в 1 раз) (во 2 раз)
|-------------------------------------||---------------------------|--------------------------|
|-------------------------------------||---------------------------|--------------------------|
|-------------------------------------||---------------------------|--------------------------|
|------7-7-7--9-10-------7-7-7--9-10--||------7-7-7--9-10-7-9-5-2--|--14-14-14--12-12-12--10--|
|--7---5-5-5--7-8----7---5-5-5--7-8---||--7---5-5-5--7-8--5-7-3-0--|--12-12-12--10-10-10--8---|
|--5-----------------5----------------||--5------------------------|--------------------------|

Riff 3

(4 раза) (2 раза) (2 раза)
|-----------------------||-----------------------||-----------------------|
|-----------------------||-----------------------||-----------------------|
|-----------------------||-----------------------||-----------------------|
|--7-7-7-7-10-10-10-10--||--9-9-9-9-12-12-12-12--||--7-7-7-7-10-10-10-10--|
|--5-5-5-5-8--8--8--8---||--7-7-7-7-10-10-10-10--||--5-5-5-5-8--8--8--8---|
|-----------------------||-----------------------||-----------------------|

В москве не понимают панк
Здесь правит лишь железный танк
И всем по жизни не везёт
Вдруг кто-нибудь опять умрёт

Преобладает серый цвет
Его раскрасить силы нет
И люди грустные шумят
Ведь лучше жить они хотят

Riff 1

Москва не станет Лондоном
Останется тюрьмой
Нам не уйти от этого
Здесь мы живём с тобой

Riff 2

Жизнь! В Москве!
Жизнь! Жизнь! В Москве!
Жизнь! В Москве!

Riff 3

Печать оставил здесь режим
И он с трудом искореним
Здесь бюрократия в цене
Пока не платишь - ты в дерьме

Менты, бандиты, короли
Политики живут одни
И на народ им всем насрать
Им больше денег, больше власть

Riff 1

Москва не станет Лондоном
Останется тюрьмой
Нам не уйти от этого
Здесь мы живём с тобой

Riff 2

Жизнь! В Москве!
Жизнь! Жизнь! В Москве!
Жизнь! В Москве!

Riff 3

Москва, как старый грузовик
Огромный, грязный броневик
Стоит по жизни он в снегу
Никто не вытрет грязь ему

Заводы тянут чёрный дым
Как будто им дышать одним

Категория: П | Добавил: Damao (24.08.2007)
Просмотров: 1963 | Рейтинг: 0.0/0

Всего комментариев: 0
avatar