Главная » Статьи » Аккорды и Табулатуры » П

Пилот - Семь часов утра
1-----------------------------------------------------------
2--------0--0----------0--0---------------------------------
3-------------2-0-----------2-0------2--2-0--------2--2-0---
4---2--2----------2--2----------------------4-0--0--------4-
5-------------------------------3--3------------------------
6-----------------------------------------------------------

1-----------------------------------------------------------
2------0--0--------0-1--0-----------------------------------
3-----------2-0--------------------2--2-0--------2--2-0-----
4-2--2----------2---------2-0-------------4-0--0--------4-2-
5-----------------------------3--3--------------------------
6-----------------------------------------------------------

Hm C F#
Мимо окон чужих сам не свой,
Hm C F#
Ветер в шею, по льду иду домой.
Hm C F#
Подскользнусь, упаду, под деревьями оставлю
Hm G
Свой злой смех,
Em F# Hm G
Все давно хотели, чтобы я ушел от всех.
Em F# Hm E
Вот и прилетела с красным пером стрела,
Cm# F#
Ткнула в грудь, не промазала.

Знаю, сила моя всегда со мной,
В кармане ключ от двери золотой.
Напьюсь Сяду в вагон,
И поедет поезд далеко,
Где кто-то также смотрит
На мир в свое окно,
И не может вспомнить
Насколько память зла
Все забрала и на ходу спрыгнула.

Собери в мешок все что есть.
Можем на дорожку присесть.
7 часов утра - все спят,
Мы с тобой уходим,
В спину нам свистят
И кидают камни.
Забудут и простят,
Заколотят двери
И вырастет трава,
Через час скошенная.

Категория: П | Добавил: S_D (09.07.2009)
Просмотров: 884 | Рейтинг: 0.0/0

Всего комментариев: 0
avatar